Counterfeit
Band: Limp Bizkit

Transcriber: Johan Braathen <leech@hotmail.com>

Drop all strings to: CGCFAD
h=hammer *= harmonics /=slide up \=slide down
Intro (I want to be part of this....)
D-----------------------------------------------------------------------------------
A-----------------------------------------------------------------------------------
F-----------------------------------------------------------------------------------
C-----------------------------------------------------------------------------------
G------------------------------------------------------------------------------------
C-0h2-2-2-0-2-0-2-0-3-3---0h2-2-2-0-2-0-2-0-2-0-3-------------
Chorus
D-----------------------------
A-----------------------------
F------------------------------------
C-1-0-------------1-0-0-----------
G-1-0--5*-*5---1-0-0--*5-------
C-1-0-------------1-0-0------*9-9*-
Verse
D-----------------------------------
A-----------------------------------
F-----------------------------------
C---0---1---0--0------0----1---0----
G---3---1---1--0------3---1----0- (Repeat several times)
C-0----------------0---------------
Interlude
D------------------------------------------
A------------------------------------------
F------------------------------------------
C--------6---6-----------4-------4/6---
G--------6---6-----------4-------4/6--- (repeat several times)
C-4/5--6----------6\5-4-------4/6---

"2nd Chorus"
G-5-7-5/3---5-3------------------3^--------------
C---------------------5-3---2-3-5-------------------

"3d Chorus"
D-----------------------------------
A-----------------------------------
F---------------5-8-3-2----------------
C-0-0-0-0---5-8-3-2---0-0-0-3-5-1--- (repeat several times)
G-0-0-0-0---3-6-1-0---0-0-0-3-5-1---
C-0-0-0-0-----------------0-0-0-3-5-1---

Thatīs all for now C U