Dammit(growing up)

Transcribed by me ltjs@hotmail.com

INTRO & CHORUS

E:---------------------------------------------|
B:---------------------------------------------|
G:---------------------------------------------| 4 times
D:---------------------------------------------|
A:-3-3--5--7------5--7--------5--7-------7--5--|
E:------------3-3--------5-5--------1-1--------|

VERSE (in the verse, the first chord in each group is played and the rest are palm muted)

E:------------------------------------------------------------|
B:------------------------------------------------------------|
G:-5-5-5-5-5-5-5----------------------------------------------|
D:-5-5-5-5-5-5-5--5-5-5-5-5-5-5--7-7-7-7-7-7-7--3-3-3-3-3-3-3-|
A:-3-3-3-3-3-3-3--5-5-5-5-5-5-5--7-7-7-7-7-7-7--3-3-3-3-3-3-3-|
E:----------------3-3-3-3-3-3-3--5-5-5-5-5-5-5--1-1-1-1-1-1-1-|

SOLO(not sure about this, it's about right but may be the wrong order)

E:--3-------3------------3--5-3----------------|
B:----5-3-----5-3--1-3----------5--------------|
G:---------------------------------------------|
D:---------------------------------------------|
A:---------------------------------------------|
E:---------------------------------------------|