JUST LIKE FRANK
LESS THAN JAKE
Losing Streak CD
Tabbed by nnru66a@prodigy.com
Figured out by his lesson teacher guy



Well here it is. The bassline you have all been waiting for.

The whole thing is....
G:
D:
A:5555 5555 5555 5555
E:

just kidding ha ha funny joke wasn't it i didn't think so
either that was just the intro



VERSE
G:----------------------------------------
D:-----------------------------------------
A:5555---2222----------------0-------
E:---------------------0000 33--3----

PRE
G:-------------------------------------------------------------------
D:-------------------------------------5555---45--45-----------
A:-------------------7777--7777----------------------45 45--
E:5555---5555--------------------------------------------------

G:-------------------------------------------------------------
D:------------------------------------5555 5555 5557--
A:-----------------7777--7777----------------------------
E:5555--5555---------------------------------------------


CHOROUS: {just like anyoune just like frank etc.}
G:------------------------------------------
D:-------------------------55--4-5-4----
A:5555----------7777------------------
E:--------5555---------------------------


BRIDGE:
G:---------------------------------------------------------------------
D:00--4-000--5--4-0---------------42224242-----------------
A:-------------------------2-2------------------------0---------------
E:---------------------------------------------------------0000 234

have fun. it's all there, somewhere. e-mail me to tell me what you
think. if not e-mail steve and tell him what you think so that he
can tell me what you think. more to come by me and steve {mostly
steve because he has no life so he can sit home, wack it a lot ,and
figure out songs.