HAPPYMAN:-)

by LESS THAN JAKE
LOSING STREAK
3-18-98

TABBED BY ERIC  -  ltjs@hotmail.com
owner of http://members.tripod.com/~ltjs/ A LESS THAN JAKE TAB PAGE

  

INTRO: distortion Let it ring dammit-->
------------------------------------------|
------------------------------------------|
------------------------------------------|
--5----------8----------5----8----8--|
--5----------8----------5----8----8--|
--3----------6----------3----6----6--|

Verse: fast ska---it should at least be the right chords. I think it goes......
--6-6-6-6--3-3-3-3--6-6-6-6--4-4-4-4--|
--8-8-8-8--5-5-5-5--6-6-6-6--4-4-4-4--|
--8-8-8-8--5-5-5-5--7-7-7-7--6-6-6-6--|
--8-8-8-8--5-5-5-5--8-8-8-8--5-5-5-5--|
--6-6-6-6--3-3-3-3--8-8-8-8--5-5-5-5--|
----------------------------6-6-6-6--4-4-4-4--|

CHORUS: Distortion
---------------------------------------------------------------------------------------------------------|
---------------------------------------------------------------------------------------------------------|
--5-5-5-5--8-8-8-8---------------------------8-8-8-8---------------8-8-8-8---------------|
--5-5-5-5--8-8-8-8--8-8-8-8-8-8-8-8--8-8-8-8--6-6-6-6--8-8-8-8--8-8-8-8--|
--3-3-3-3--6-6-6-6--8-8-8-8-8-8-8-8--6-6-6-6--6-6-6-6--6-6-6-6--8-8-8-8--|
----------------------------6-6-6-6-6-6-6-6---------------4-4-4-4---------------6-6-6-6--|