How's My Driving, Doug Hastings?
Less Than Jake
Losing Streak (1996)
Words by Vinnie, music by Chris, Roger and LTJ
Transcribed by Luke Knox lukeknox@iname.com e-mail me!!

 

Here's a great ska-punk song by LTJ. Enjoy:

Intro/Verse:
A# G# D# A#
E---6---4---3---6---
B---6---4---4---6---
G---7---5---3---7---
D---8---6--------8---
A-------------------
E-------------------

Bridge:
G# C#
E---4---4---
B---4---6---
G---5---6---
D---6---6---
A-----------
E-----------

Chorus:
G# C# F# C#
E---4---1---2---1---
B---4---2---2---2---
G---5---1---3---1---
D---6--------4-------
A-------------------
E-------------------

Lyrics:
Friday night on coke with a crow bar, left at two in the back of Doug's
car, without a plan and being fucked up, lookin' to get something,
something for ourselves. Friday night at three at a side door, Doug said
try to get the door just once more, I said man, this is all fucked up,
just trying to get something, something for ourselves. Feeling kinda
weird and I'm thinking to myself, feeling kinda weird and I'm thinking to
myself. . . Fuck Doug, I'm not going out like this, he said I'm all I got
and I won't be missed. This makes no sense, it makes no sense to me, this
isn't the way it's supposed to be.

That's it! Please send me any requests, comments, changes, or anything
else. Thanks.

Luke