Pollution
Band: Limp Bizkit

Transcriber: Johan Braathen <leech@hotmail.com>

guess wich tuning???
Intro
F---2-0-3-0-2^3^0------2-0-3-0-2^3------
C---2-0-3-0-2^3^0------2-0-3-0-2^3------

Then it dropps down to some heavy shit
G--2-0-3-0-2^3^0------2-0-3-0-2^3------
C--2-0-3-0-2^3^0------2-0-3-0-2^3------

Verse:
G---X-X-X-X-X-2^-X-X-X-3^------------
C---X-X-X-X-X-2^-X-X-X-3^------------

Then a litle break
F---2/3-2---3/4-3------2/3-2--3/4-3--6---
C---2/3-2---3/4-3------2/3-2--3/4-3--6---

Then this
G--2-0-3-2-X-X-5-X-X-X-X-X
C--2-0-3-2-X-X-5-X-X-X-X-X

End riff:
G---2/3-2---3/4-3------2/3-2--3/4-3--6---
C---2/3-2---3/4-3------2/3-2--3/4-3--6---

Thatīs all for now C U