Summer Nights
By Less Than Jake
Off the Album - Greased

Tabbed By Eric A.K.A DaPezKinG
Owner of - A Less Than Jake Tab Page
http://members.tripod.com/~ltjs

Intro: it goes a little somethin like this... about twice as fast as the movie

distortion

E---------------------------|
B---------------------------|
G------5--5-7--7-5-7-5------|   Twice
D-5--5-5--5-7--7-5-7-5-5----|
A-5--5-3--3-5--5-3-5-3-5----|
E-3--3-----------------3----|

The third time do this instead

distortion
E---------------------|
B---------------------|
G-------5-55-777-9----|
D-5--55-5-55-777-9----|
A-5--55-3-33-555-7----|
E-3--33---------------|

Rest of the stuff Sounds Like this:

with distortion

E------------------------------------|
B------------------------------------|
G---------5-5-5-5-7-7-7-7-5-5-5-5----|
D-5-5-5-5-5-5-5-5-7-7-7-7-5-5-5-5----|
A-5-5-5-5-3-3-3-3-5-5-5-5-3-3-3-3----|
E-3-3-3-3----------------------------|

Then they start sayin  Ah ha ah ha ah ha ah ha

with Distortion

E------------------------------|
B------------------------------|
G-------X-55-XX-77-XX-55-XX----|     
D-X-55-XX-55-XX-77-XX-55-XX----|
A-X-55-XX-33-XX-55-XX-33-XX----|
E-X-33-X-----------------------|

They also do a ska rhthym during the song

That's it.

E-mail me with requests or suggestions